All of me – John Legend | electric guitar cover (instrumental)

Este es mi cover instrumental de All of me de John Legend
Dejá un comentario y decime que te parece!

Suscribite a mi canal
https://www.youtube.com/subscription_center?add_user=ivocabre

“You’re crazy and I’m out of my mind”

«All of Me» es una canción del artista estadounidense de R&B John Legend. Fue lanzado el 12 de agosto de 2013 como uno de los sencillos de su cuarto álbum de estudio Love in the Future. La melodía fue producida por David Tozer y el cantante, y coescrita junto a Toby Gad. La canción es una dedicatoria a la esposa de Legend, la modelo Chrissy Teigen. Causó gran impacto en las principales radios urbanas por lo que fue lanzado en Estados Unidos como el tercer sencillo del álbum. Permaneció en la primera ubicación del Billboard Hot 100 durante tres semanas en mayo de 2014, convirtiéndose así en su primer número uno en los Estados Unidos.3 También lideró las listas de Australia, Canadá, Irlanda, Portugal, Suecia, Suiza y los Países Bajos, y fue número 2 en la lista de sencillos del Reino Unido y Nueva Zelanda. La canción ha vendido alrededor de 3 155 896 copias en los Estados Unidos según con Nielsen Soundscan hasta abril de 2014

Backing track:

http://goo.gl/PKhzWs

Guitar tab:

(/) Slide Up  () Slide Down  (h) Hammer On  (p) Pull Off  (b) Bend (r) Release (v) Vibrato

E  :------------------------------------------------------------------------
B  :------------------------------------------------------------------------
G  :--5-5-5-5-5-5---5-5-5-5-5---------5-5-6-5---6-6-5-------5-----5-5-5-5-5-
D  :8-------------6-----------8-6-------------6-------6-8-8---6-------------
A  :------------------------------8-8---------------------------8-----------
E  :------------------------------------------------------------------------

E  :------------------------------------------------------------------------
B  :------------------------------------------------------6-----------------
G  :5-5---5-5-5-8-8-5-------5-5-6-5---6-6-5-------5---6-----8-6-5-----------
D  :----6-------------8-6-----------6-------6-8-8---8---8---------8-6-5-6-5-
A  :----------------------8-------------------------------------------------
E  :------------------------------------------------------------------------

E  :------------------------------------------------------------------------
B  :--------6-----------------4---6-6---------------------------------------
G  :----------8-6-5-5-------5---5-----5-----5-5-5-5-------------5-5-5-------
D  :------8-----------8-6-8-------------8-6---------8-8-8-6-8-8-------8-8-8-
A  :8-6-8-------------------------------------------------------------------
E  :------------------------------------------------------------------------

E  :------------------------------------------------------------------------
B  :------4---6-6-9-8-6-------------------------------------------9-8-6-----
G  :----5---5-----------5-5-5-5-5-----------5-5-5-----------5-6-8-------5-5-
D  :6-8---------------------------8-8-8-6-8-------8-8-8-6-8-----------------
A  :------------------------------------------------------------------------
E  :------------------------------------------------------------------------

E  :------------------------------------------------------------------------
B  :----------9-8-6-6-------------------------------------------------------
G  :5---5-6-8---------5-5---------------------------------------------------
D  :--8-------------------8-------------------------------------------------
A  :------------------------------------------------------------------------
E  :------------------------------------------------------------------------


E  :------------------------------------------------------------------------
B  :13-13-13-13-13-13-13----13-13-13-13-13-------------13-13-14-13-13-15----
G  :---------------------13----------------15-13-------------------------15-
D  :---------------------------------------------15-15----------------------
A  :------------------------------------------------------------------------
E  :------------------------------------------------------------------------

E  :------------------------------------------------------------------------
B  :13----------16-13-------13-13-13-14-14-13-------------13-13-14-13----14-
G  :---13-------------13-13-------------------15-13-15-15-------------13----
D  :------15-15-------------------------------------------------------------
A  :------------------------------------------------------------------------
E  :------------------------------------------------------------------------

E  :------------------------13-------------------------------------13-------
B  :13----------13----14-------16-14-13-14-13-------------------------16-14-
G  :---13-15-15----15----15-------------------15-13-12----------15----------
D  :---------------------------------------------------15-13-15-------------
A  :------------------------------------------------------------------------
E  :------------------------------------------------------------------------

E  :-----------------------------------------------------------------------
B  :13-13-------------16----18-18-13------------------------------------13-
G  :------15-13-15-17----17----------13-13-15^-15-15-15-15-r15-15-15-13----
D  :-----------------------------------------------------------------------
A  :-----------------------------------------------------------------------
E  :-----------------------------------------------------------------------

E  :---------------------------------16-15-13-13-13------------------------
B  :13-13-------------------16----18----------------13-13------------------
G  :------15-15-15-13-15-17----17----------------------15-15^-15-15-15-r15-
D  :-----------------------------------------------------------------------
A  :-----------------------------------------------------------------------
E  :-----------------------------------------------------------------------

E  :---------------------------------------------16-15-13-------------------
B  :------------13-13-13----------------13-14-16----------13----------------
G  :15-15-13-15----------15-15-15-13-15-------------------15-15-15-15-r15-15
D  :------------------------------------------------------------------------
A  :------------------------------------------------------------------------
E  :------------------------------------------------------------------------

E  :----------16-15-13------------------------------------------------------
B  :-13-14-16---------------------------------------------------------------
G  :-------------------15-15^-15-15-15-r15-15-3^----------------------------
D  :------------------------------------------------------------------------
A  :------------------------------------------------------------------------
E  :------------------------------------------------------------------------

No Comments Yet On All of me – John Legend | electric guitar cover (instrumental)

Leave a Reply

Tu dirección de correo electrónico no será publicada. Los campos obligatorios están marcados con *